999
"DXF R12 Output" (www.mydxf.blogspot.com)
 0 
SECTION
 2 
HEADER
 9 
$ACADVER
 1 
AC1009
 9 
$EXTMIN
 10 
 0 
 20 
 0 
 9 
$EXTMAX
 10 
 8.5 
 20 
 11 
 0 
ENDSEC
 0 
SECTION
 2 
ENTITIES
0
LINE
8
Layer 1
10
0.140987
20
120.592000
11
0.140987
21
76.142000
0
LINE
8
Layer 1
10
0.140987
20
76.142000
11
26.778000
21
0.100000
0
LINE
8
Layer 1
10
26.778000
20
0.100000
11
25.910711
21
3.360244
0
LINE
8
Layer 1
10
25.910711
20
3.360244
11
25.551976
21
6.663082
0
LINE
8
Layer 1
10
25.551976
20
6.663082
11
25.685158
21
9.946366
0
LINE
8
Layer 1
10
25.685158
20
9.946366
11
26.293622
21
13.147951
0
LINE
8
Layer 1
10
26.293622
20
13.147951
11
27.360731
21
16.205688
0
LINE
8
Layer 1
10
27.360731
20
16.205688
11
28.869849
21
19.057432
0
LINE
8
Layer 1
10
28.869849
20
19.057432
11
30.804340
21
21.641036
0
LINE
8
Layer 1
10
30.804340
20
21.641036
11
33.147567
21
23.894353
0
LINE
8
Layer 1
10
33.147567
20
23.894353
11
35.799207
21
25.703378
0
LINE
8
Layer 1
10
35.799207
20
25.703378
11
38.630177
21
26.995539
0
LINE
8
Layer 1
10
38.630177
20
26.995539
11
41.580700
21
27.770836
0
LINE
8
Layer 1
10
41.580700
20
27.770836
11
44.591000
21
28.029268
0
LINE
8
Layer 1
10
44.591000
20
28.029268
11
47.601300
21
27.770836
0
LINE
8
Layer 1
10
47.601300
20
27.770836
11
50.551823
21
26.995539
0
LINE
8
Layer 1
10
50.551823
20
26.995539
11
53.382793
21
25.703378
0
LINE
8
Layer 1
10
53.382793
20
25.703378
11
56.034433
21
23.894353
0
LINE
8
Layer 1
10
56.034433
20
23.894353
11
58.377660
21
21.641036
0
LINE
8
Layer 1
10
58.377660
20
21.641036
11
60.312151
21
19.057432
0
LINE
8
Layer 1
10
60.312151
20
19.057432
11
61.821269
21
16.205688
0
LINE
8
Layer 1
10
61.821269
20
16.205688
11
62.888378
21
13.147951
0
LINE
8
Layer 1
10
62.888378
20
13.147951
11
63.496842
21
9.946366
0
LINE
8
Layer 1
10
63.496842
20
9.946366
11
63.630024
21
6.663082
0
LINE
8
Layer 1
10
63.630024
20
6.663082
11
63.271289
21
3.360244
0
LINE
8
Layer 1
10
63.271289
20
3.360244
11
62.404000
21
0.100000
0
LINE
8
Layer 1
10
62.404000
20
0.100000
11
89.041000
21
76.142000
0
LINE
8
Layer 1
10
89.041000
20
76.142000
11
89.041000
21
120.592000
0
LINE
8
Layer 1
10
89.041000
20
120.592000
11
0.140987
21
120.592000
0
LINE
8
Layer 1
10
14.428000
20
93.208000
11
15.794945
21
93.479902
0
LINE
8
Layer 1
10
15.794945
20
93.479902
11
16.953785
21
94.254215
0
LINE
8
Layer 1
10
16.953785
20
94.254215
11
17.728098
21
95.413055
0
LINE
8
Layer 1
10
17.728098
20
95.413055
11
18.000000
21
96.780000
0
LINE
8
Layer 1
10
18.000000
20
96.780000
11
17.728098
21
98.146945
0
LINE
8
Layer 1
10
17.728098
20
98.146945
11
16.953785
21
99.305785
0
LINE
8
Layer 1
10
16.953785
20
99.305785
11
15.794945
21
100.080098
0
LINE
8
Layer 1
10
15.794945
20
100.080098
11
14.428000
21
100.352000
0
LINE
8
Layer 1
10
14.428000
20
100.352000
11
13.061055
21
100.080098
0
LINE
8
Layer 1
10
13.061055
20
100.080098
11
11.902215
21
99.305785
0
LINE
8
Layer 1
10
11.902215
20
99.305785
11
11.127902
21
98.146945
0
LINE
8
Layer 1
10
11.127902
20
98.146945
11
10.856000
21
96.780000
0
LINE
8
Layer 1
10
10.856000
20
96.780000
11
11.127902
21
95.413055
0
LINE
8
Layer 1
10
11.127902
20
95.413055
11
11.902215
21
94.254215
0
LINE
8
Layer 1
10
11.902215
20
94.254215
11
13.061055
21
93.479902
0
LINE
8
Layer 1
10
13.061055
20
93.479902
11
14.428000
21
93.208000
0
LINE
8
Layer 1
10
14.428000
20
93.208000
11
14.428000
21
93.208000
0
LINE
8
Layer 1
10
74.753000
20
93.208000
11
76.119945
21
93.479902
0
LINE
8
Layer 1
10
76.119945
20
93.479902
11
77.278785
21
94.254215
0
LINE
8
Layer 1
10
77.278785
20
94.254215
11
78.053098
21
95.413055
0
LINE
8
Layer 1
10
78.053098
20
95.413055
11
78.325000
21
96.780000
0
LINE
8
Layer 1
10
78.325000
20
96.780000
11
78.053098
21
98.146945
0
LINE
8
Layer 1
10
78.053098
20
98.146945
11
77.278785
21
99.305785
0
LINE
8
Layer 1
10
77.278785
20
99.305785
11
76.119945
21
100.080098
0
LINE
8
Layer 1
10
76.119945
20
100.080098
11
74.753000
21
100.352000
0
LINE
8
Layer 1
10
74.753000
20
100.352000
11
73.386055
21
100.080098
0
LINE
8
Layer 1
10
73.386055
20
100.080098
11
72.227215
21
99.305785
0
LINE
8
Layer 1
10
72.227215
20
99.305785
11
71.452902
21
98.146945
0
LINE
8
Layer 1
10
71.452902
20
98.146945
11
71.181000
21
96.780000
0
LINE
8
Layer 1
10
71.181000
20
96.780000
11
71.452902
21
95.413055
0
LINE
8
Layer 1
10
71.452902
20
95.413055
11
72.227215
21
94.254215
0
LINE
8
Layer 1
10
72.227215
20
94.254215
11
73.386055
21
93.479902
0
LINE
8
Layer 1
10
73.386055
20
93.479902
11
74.753000
21
93.208000
0
LINE
8
Layer 1
10
74.753000
20
93.208000
11
74.753000
21
93.208000
0
LINE
8
Layer 1
10
44.591000
20
102.733000
11
45.957945
21
103.004902
0
LINE
8
Layer 1
10
45.957945
20
103.004902
11
47.116785
21
103.779215
0
LINE
8
Layer 1
10
47.116785
20
103.779215
11
47.891098
21
104.938055
0
LINE
8
Layer 1
10
47.891098
20
104.938055
11
48.163000
21
106.305000
0
LINE
8
Layer 1
10
48.163000
20
106.305000
11
47.891098
21
107.671945
0
LINE
8
Layer 1
10
47.891098
20
107.671945
11
47.116785
21
108.830785
0
LINE
8
Layer 1
10
47.116785
20
108.830785
11
45.957945
21
109.605098
0
LINE
8
Layer 1
10
45.957945
20
109.605098
11
44.591000
21
109.877000
0
LINE
8
Layer 1
10
44.591000
20
109.877000
11
43.224055
21
109.605098
0
LINE
8
Layer 1
10
43.224055
20
109.605098
11
42.065215
21
108.830785
0
LINE
8
Layer 1
10
42.065215
20
108.830785
11
41.290902
21
107.671945
0
LINE
8
Layer 1
10
41.290902
20
107.671945
11
41.019000
21
106.305000
0
LINE
8
Layer 1
10
41.019000
20
106.305000
11
41.290902
21
104.938055
0
LINE
8
Layer 1
10
41.290902
20
104.938055
11
42.065215
21
103.779215
0
LINE
8
Layer 1
10
42.065215
20
103.779215
11
43.224055
21
103.004902
0
LINE
8
Layer 1
10
43.224055
20
103.004902
11
44.591000
21
102.733000
0
LINE
8
Layer 1
10
44.591000
20
102.733000
11
44.591000
21
102.733000
0
LINE
8
Layer 1
10
-50.659000
20
76.142000
11
-24.022000
21
0.100000
0
LINE
8
Layer 1
10
-24.022000
20
0.100000
11
14.078000
21
0.100000
0
LINE
8
Layer 1
10
14.078000
20
0.100000
11
-12.559000
21
76.142000
0
LINE
8
Layer 1
10
-12.559000
20
76.142000
11
-50.659000
21
76.142000
0
LINE
8
Layer 1
10
139.841000
20
76.142000
11
113.204000
21
0.100000
0
LINE
8
Layer 1
10
113.204000
20
0.100000
11
75.104000
21
0.100000
0
LINE
8
Layer 1
10
75.104000
20
0.100000
11
101.741000
21
76.142000
0
LINE
8
Layer 1
10
101.741000
20
76.142000
11
139.841000
21
76.142000
 0 
ENDSEC
 0 
EOF