  0
SECTION
  2
HEADER
  9
$ACADVER
  1
AC1014
  9
$HANDSEED
  5
FFFF
  9
$INSUNITS
 70
     4
  9
$MEASUREMENT
 70
     1
  0
ENDSEC
  0
SECTION
  2
TABLES
  0
TABLE
  2
VPORT
  5
8
330
0
100
AcDbSymbolTable
 70
     4
  0
VPORT
  5
2E
330
8
100
AcDbSymbolTableRecord
100
AcDbViewportTableRecord
  2
*ACTIVE
 70
     0
 10
0.0
 20
0.0
 11
1.0
 21
1.0
 12
210.0
 22
148.5
 13
0.0
 23
0.0
 14
10.0
 24
10.0
 15
10.0
 25
10.0
 16
0.0
 26
0.0
 36
1.0
 17
0.0
 27
0.0
 37
0.0
 40
341.0
 41
1.24
 42
50.0
 43
0.0
 44
0.0
 50
0.0
 51
0.0
 71
     0
 72
   100
 73
     1
 74
     3
 75
     0
 76
     0
 77
     0
 78
     0
  0
ENDTAB
  0
TABLE
  2
LTYPE
  5
5
330
0
100
AcDbSymbolTable
 70
     1
  0
LTYPE
  5
14
330
5
100
AcDbSymbolTableRecord
100
AcDbLinetypeTableRecord
  2
BYBLOCK
 70
     0
  3

 72
    65
 73
     0
 40
0.0
  0
LTYPE
  5
15
330
5
100
AcDbSymbolTableRecord
100
AcDbLinetypeTableRecord
  2
BYLAYER
 70
     0
  3

 72
    65
 73
     0
 40
0.0
  0
LTYPE
  5
16
330
5
100
AcDbSymbolTableRecord
100
AcDbLinetypeTableRecord
  2
CONTINUOUS
 70
     0
  3
Solid line
 72
    65
 73
     0
 40
0.0
  0
ENDTAB
  0
TABLE
  2
LAYER
  5
2
100
AcDbSymbolTable
 70
1
  0
LAYER
  5
50
100
AcDbSymbolTableRecord
100
AcDbLayerTableRecord
  2
0
 70
0
  6
CONTINUOUS
  0
ENDTAB
  0
TABLE
  2
STYLE
  5
3
330
0
100
AcDbSymbolTable
 70
     1
  0
STYLE
  5
11
330
3
100
AcDbSymbolTableRecord
100
AcDbTextStyleTableRecord
  2
STANDARD
 70
     0
 40
0.0
 41
1.0
 50
0.0
 71
     0
 42
2.5
  3
txt
  4

  0
ENDTAB
  0
TABLE
  2
VIEW
  5
6
330
0
100
AcDbSymbolTable
 70
     0
  0
ENDTAB
  0
TABLE
  2
UCS
  5
7
330
0
100
AcDbSymbolTable
 70
     0
  0
ENDTAB
  0
TABLE
  2
APPID
  5
9
330
0
100
AcDbSymbolTable
 70
     2
  0
APPID
  5
12
330
9
100
AcDbSymbolTableRecord
100
AcDbRegAppTableRecord
  2
ACAD
 70
     0
  0
ENDTAB
  0
TABLE
  2
DIMSTYLE
  5
A
330
0
100
AcDbSymbolTable
 70
     1
  0
DIMSTYLE
105
27
330
A
100
AcDbSymbolTableRecord
100
AcDbDimStyleTableRecord
  2
ISO-25
 70
     0
  3

  4

  5

  6

  7

 40
1.0
 41
2.5
 42
0.625
 43
3.75
 44
1.25
 45
0.0
 46
0.0
 47
0.0
 48
0.0
140
2.5
141
2.5
142
0.0
143
0.03937007874016
144
1.0
145
0.0
146
1.0
147
0.625
 71
     0
 72
     0
 73
     0
 74
     0
 75
     0
 76
     0
 77
     1
 78
     8
170
     0
171
     3
172
     1
173
     0
174
     0
175
     0
176
     0
177
     0
178
     0
270
     2
271
     2
272
     2
273
     2
274
     3
340
11
275
     0
280
     0
281
     0
282
     0
283
     0
284
     8
285
     0
286
     0
287
     3
288
     0
  0
ENDTAB
  0
TABLE
  2
BLOCK_RECORD
  5
1
330
0
100
AcDbSymbolTable
 70
     1
  0
BLOCK_RECORD
  5
1F
330
1
100
AcDbSymbolTableRecord
100
AcDbBlockTableRecord
  2
*MODEL_SPACE
  0
BLOCK_RECORD
  5
1B
330
1
100
AcDbSymbolTableRecord
100
AcDbBlockTableRecord
  2
*PAPER_SPACE
  0
ENDTAB
  0
ENDSEC
  0
SECTION
  2
BLOCKS
  0
BLOCK
  5
20
330
1F
100
AcDbEntity
  8
0
100
AcDbBlockBegin
  2
*MODEL_SPACE
 70
     0
 10
0.0
 20
0.0
 30
0.0
  3
*MODEL_SPACE
  1

  0
ENDBLK
  5
21
330
1F
100
AcDbEntity
  8
0
100
AcDbBlockEnd
  0
BLOCK
  5
1C
330
1B
100
AcDbEntity
 67
     1
  8
0
100
AcDbBlockBegin
  2
*PAPER_SPACE
  1

  0
ENDBLK
  5
1D
330
1B
100
AcDbEntity
 67
     1
  8
0
100
AcDbBlockEnd
  0
ENDSEC
  0
SECTION
  2
ENTITIES
  0
LINE
  5
100
100
AcDbEntity
  8
0
 62
7
100
AcDbLine
 10
0.140987
 20
120.592010
 30
0.0
 11
0.140987
 21
76.142010
 31
0.0
  0
LINE
  5
101
100
AcDbEntity
  8
0
 62
7
100
AcDbLine
 10
0.140987
 20
76.142010
 30
0.0
 11
26.777987
 21
0.100010
 31
0.0
  0
LINE
  5
102
100
AcDbEntity
  8
0
 62
7
100
AcDbLine
 10
62.403987
 20
0.100010
 30
0.0
 11
89.040987
 21
76.142010
 31
0.0
  0
LINE
  5
103
100
AcDbEntity
  8
0
 62
7
100
AcDbLine
 10
89.040987
 20
76.142010
 30
0.0
 11
89.040987
 21
120.592010
 31
0.0
  0
LINE
  5
104
100
AcDbEntity
  8
0
 62
7
100
AcDbLine
 10
89.040987
 20
120.592010
 30
0.0
 11
0.140987
 21
120.592010
 31
0.0
  0
SPLINE
  5
105
100
AcDbEntity
  8
0
 62
7
100
AcDbSpline
 70
0
 71
3
 72
16
 73
12
 74
10
 40
0.000000
 40
0.000000
 40
0.000000
 40
0.000000
 40
8.838540
 40
17.455916
 40
26.028184
 40
34.326572
 40
42.333374
 40
50.631761
 40
59.204030
 40
67.821405
 40
76.659945
 40
76.659945
 40
76.659945
 40
76.659945
 10
26.777987
 20
0.100010
 30
0.0
 10
26.130675
 20
3.014278
 30
0.0
 10
24.852250
 20
8.769892
 30
0.0
 10
27.314237
 20
17.440042
 30
0.0
 10
32.657223
 20
24.320558
 30
0.0
 10
40.344807
 20
28.179782
 30
0.0
 10
48.837167
 20
28.179782
 30
0.0
 10
56.524751
 20
24.320558
 30
0.0
 10
61.867737
 20
17.440042
 30
0.0
 10
64.329724
 20
8.769892
 30
0.0
 10
63.051299
 20
3.014278
 30
0.0
 10
62.403987
 20
0.100010
 30
0.0
 11
26.777987
 21
0.100010
 31
0.0
 11
25.587121
 21
8.857957
 31
0.0
 11
27.815467
 21
17.182237
 31
0.0
 11
33.147554
 21
23.894363
 31
0.0
 11
40.587586
 21
27.569843
 31
0.0
 11
48.594388
 21
27.569843
 31
0.0
 11
56.034420
 21
23.894363
 31
0.0
 11
61.366507
 21
17.182237
 31
0.0
 11
63.594853
 21
8.857957
 31
0.0
 11
62.403987
 21
0.100010
 31
0.0
  0
LINE
  5
106
100
AcDbEntity
  8
0
 62
7
100
AcDbLine
 10
14.427987
 20
93.208010
 30
0.0
 11
14.427987
 21
93.208010
 31
0.0
  0
SPLINE
  5
107
100
AcDbEntity
  8
0
 62
7
100
AcDbSpline
 70
0
 71
3
 72
31
 73
27
 74
25
 40
0.000000
 40
0.000000
 40
0.000000
 40
0.000000
 40
0.935060
 40
1.862382
 40
2.797442
 40
3.732502
 40
4.659823
 40
5.594883
 40
6.529943
 40
7.457265
 40
8.392325
 40
9.327385
 40
10.254707
 40
11.189767
 40
12.124827
 40
13.052148
 40
13.987208
 40
14.922268
 40
15.849590
 40
16.784650
 40
17.719710
 40
18.647032
 40
19.582092
 40
20.517152
 40
21.444473
 40
22.379533
 40
22.379533
 40
22.379533
 40
22.379533
 10
14.427987
 20
93.208010
 30
0.0
 10
14.740567
 20
93.231822
 30
0.0
 10
15.363139
 20
93.279248
 30
0.0
 10
16.234402
 20
93.654041
 30
0.0
 10
16.982952
 20
94.224251
 30
0.0
 10
17.556907
 20
94.973805
 30
0.0
 10
17.917796
 20
95.844801
 30
0.0
 10
18.041253
 20
96.780025
 30
0.0
 10
17.917796
 20
97.715158
 30
0.0
 10
17.556907
 20
98.586426
 30
0.0
 10
16.982952
 20
99.334975
 30
0.0
 10
16.234402
 20
99.908930
 30
0.0
 10
15.363139
 20
100.269819
 30
0.0
 10
14.427987
 20
100.393276
 30
0.0
 10
13.492835
 20
100.269819
 30
0.0
 10
12.621572
 20
99.908930
 30
0.0
 10
11.873022
 20
99.334975
 30
0.0
 10
11.299067
 20
98.586426
 30
0.0
 10
10.938178
 20
97.715158
 30
0.0
 10
10.814721
 20
96.780025
 30
0.0
 10
10.938178
 20
95.844801
 30
0.0
 10
11.299067
 20
94.973805
 30
0.0
 10
11.873022
 20
94.224251
 30
0.0
 10
12.621572
 20
93.654041
 30
0.0
 10
13.492835
 20
93.279248
 30
0.0
 10
14.115407
 20
93.231822
 30
0.0
 10
14.427987
 20
93.208010
 30
0.0
 11
14.427987
 21
93.208010
 31
0.0
 11
15.355004
 21
93.330389
 31
0.0
 11
16.211738
 21
93.685259
 31
0.0
 11
16.953772
 21
94.254225
 31
0.0
 11
17.522738
 21
94.996259
 31
0.0
 11
17.877608
 21
95.852993
 31
0.0
 11
17.999987
 21
96.780010
 31
0.0
 11
17.877608
 21
97.707027
 31
0.0
 11
17.522738
 21
98.563761
 31
0.0
 11
16.953772
 21
99.305795
 31
0.0
 11
16.211738
 21
99.874761
 31
0.0
 11
15.355004
 21
100.229631
 31
0.0
 11
14.427987
 21
100.352010
 31
0.0
 11
13.500970
 21
100.229631
 31
0.0
 11
12.644236
 21
99.874761
 31
0.0
 11
11.902202
 21
99.305795
 31
0.0
 11
11.333236
 21
98.563761
 31
0.0
 11
10.978366
 21
97.707027
 31
0.0
 11
10.855987
 21
96.780010
 31
0.0
 11
10.978366
 21
95.852993
 31
0.0
 11
11.333236
 21
94.996259
 31
0.0
 11
11.902202
 21
94.254225
 31
0.0
 11
12.644236
 21
93.685259
 31
0.0
 11
13.500970
 21
93.330389
 31
0.0
 11
14.427987
 21
93.208010
 31
0.0
  0
LINE
  5
108
100
AcDbEntity
  8
0
 62
7
100
AcDbLine
 10
74.752987
 20
93.208010
 30
0.0
 11
74.752987
 21
93.208010
 31
0.0
  0
SPLINE
  5
109
100
AcDbEntity
  8
0
 62
7
100
AcDbSpline
 70
0
 71
3
 72
31
 73
27
 74
25
 40
0.000000
 40
0.000000
 40
0.000000
 40
0.000000
 40
0.935060
 40
1.862382
 40
2.797442
 40
3.732502
 40
4.659823
 40
5.594883
 40
6.529943
 40
7.457265
 40
8.392325
 40
9.327385
 40
10.254707
 40
11.189767
 40
12.124827
 40
13.052148
 40
13.987208
 40
14.922268
 40
15.849590
 40
16.784650
 40
17.719710
 40
18.647032
 40
19.582092
 40
20.517152
 40
21.444473
 40
22.379533
 40
22.379533
 40
22.379533
 40
22.379533
 10
74.752987
 20
93.208010
 30
0.0
 10
75.065567
 20
93.231822
 30
0.0
 10
75.688139
 20
93.279248
 30
0.0
 10
76.559402
 20
93.654041
 30
0.0
 10
77.307952
 20
94.224251
 30
0.0
 10
77.881907
 20
94.973805
 30
0.0
 10
78.242796
 20
95.844801
 30
0.0
 10
78.366253
 20
96.780025
 30
0.0
 10
78.242796
 20
97.715158
 30
0.0
 10
77.881907
 20
98.586426
 30
0.0
 10
77.307952
 20
99.334975
 30
0.0
 10
76.559402
 20
99.908930
 30
0.0
 10
75.688139
 20
100.269819
 30
0.0
 10
74.752987
 20
100.393276
 30
0.0
 10
73.817835
 20
100.269819
 30
0.0
 10
72.946572
 20
99.908930
 30
0.0
 10
72.198022
 20
99.334975
 30
0.0
 10
71.624067
 20
98.586426
 30
0.0
 10
71.263178
 20
97.715158
 30
0.0
 10
71.139721
 20
96.780025
 30
0.0
 10
71.263178
 20
95.844801
 30
0.0
 10
71.624067
 20
94.973805
 30
0.0
 10
72.198022
 20
94.224251
 30
0.0
 10
72.946572
 20
93.654041
 30
0.0
 10
73.817835
 20
93.279248
 30
0.0
 10
74.440407
 20
93.231822
 30
0.0
 10
74.752987
 20
93.208010
 30
0.0
 11
74.752987
 21
93.208010
 31
0.0
 11
75.680004
 21
93.330389
 31
0.0
 11
76.536738
 21
93.685259
 31
0.0
 11
77.278772
 21
94.254225
 31
0.0
 11
77.847738
 21
94.996259
 31
0.0
 11
78.202608
 21
95.852993
 31
0.0
 11
78.324987
 21
96.780010
 31
0.0
 11
78.202608
 21
97.707027
 31
0.0
 11
77.847738
 21
98.563761
 31
0.0
 11
77.278772
 21
99.305795
 31
0.0
 11
76.536738
 21
99.874761
 31
0.0
 11
75.680004
 21
100.229631
 31
0.0
 11
74.752987
 21
100.352010
 31
0.0
 11
73.825970
 21
100.229631
 31
0.0
 11
72.969236
 21
99.874761
 31
0.0
 11
72.227202
 21
99.305795
 31
0.0
 11
71.658236
 21
98.563761
 31
0.0
 11
71.303366
 21
97.707027
 31
0.0
 11
71.180987
 21
96.780010
 31
0.0
 11
71.303366
 21
95.852993
 31
0.0
 11
71.658236
 21
94.996259
 31
0.0
 11
72.227202
 21
94.254225
 31
0.0
 11
72.969236
 21
93.685259
 31
0.0
 11
73.825970
 21
93.330389
 31
0.0
 11
74.752987
 21
93.208010
 31
0.0
  0
LINE
  5
10a
100
AcDbEntity
  8
0
 62
7
100
AcDbLine
 10
44.590987
 20
102.733010
 30
0.0
 11
44.590987
 21
102.733010
 31
0.0
  0
LINE
  5
10b
100
AcDbEntity
  8
0
 62
7
100
AcDbLine
 10
-50.659013
 20
76.142010
 30
0.0
 11
-24.022013
 21
0.100010
 31
0.0
  0
LINE
  5
10c
100
AcDbEntity
  8
0
 62
7
100
AcDbLine
 10
-24.022013
 20
0.100010
 30
0.0
 11
14.077987
 21
0.100010
 31
0.0
  0
LINE
  5
10d
100
AcDbEntity
  8
0
 62
7
100
AcDbLine
 10
14.077987
 20
0.100010
 30
0.0
 11
-12.559013
 21
76.142010
 31
0.0
  0
LINE
  5
10e
100
AcDbEntity
  8
0
 62
7
100
AcDbLine
 10
-12.559013
 20
76.142010
 30
0.0
 11
-50.659013
 21
76.142010
 31
0.0
  0
LINE
  5
10f
100
AcDbEntity
  8
0
 62
7
100
AcDbLine
 10
139.840990
 20
76.142010
 30
0.0
 11
113.203990
 21
0.100010
 31
0.0
  0
LINE
  5
110
100
AcDbEntity
  8
0
 62
7
100
AcDbLine
 10
113.203990
 20
0.100010
 30
0.0
 11
75.103987
 21
0.100010
 31
0.0
  0
LINE
  5
111
100
AcDbEntity
  8
0
 62
7
100
AcDbLine
 10
75.103987
 20
0.100010
 30
0.0
 11
101.740990
 21
76.142010
 31
0.0
  0
LINE
  5
112
100
AcDbEntity
  8
0
 62
7
100
AcDbLine
 10
101.740990
 20
76.142010
 30
0.0
 11
139.840990
 21
76.142010
 31
0.0
  0
SPLINE
  5
113
100
AcDbEntity
  8
0
 62
7
100
AcDbSpline
 70
0
 71
3
 72
31
 73
27
 74
25
 40
0.000000
 40
0.000000
 40
0.000000
 40
0.000000
 40
0.935060
 40
1.862382
 40
2.797442
 40
3.732502
 40
4.659823
 40
5.594883
 40
6.529943
 40
7.457265
 40
8.392325
 40
9.327385
 40
10.254707
 40
11.189767
 40
12.124827
 40
13.052148
 40
13.987208
 40
14.922268
 40
15.849590
 40
16.784650
 40
17.719710
 40
18.647032
 40
19.582092
 40
20.517152
 40
21.444473
 40
22.379533
 40
22.379533
 40
22.379533
 40
22.379533
 10
44.590987
 20
102.733010
 30
0.0
 10
44.903567
 20
102.756822
 30
0.0
 10
45.526139
 20
102.804248
 30
0.0
 10
46.397402
 20
103.179041
 30
0.0
 10
47.145952
 20
103.749251
 30
0.0
 10
47.719907
 20
104.498805
 30
0.0
 10
48.080796
 20
105.369801
 30
0.0
 10
48.204253
 20
106.305025
 30
0.0
 10
48.080796
 20
107.240158
 30
0.0
 10
47.719907
 20
108.111426
 30
0.0
 10
47.145952
 20
108.859975
 30
0.0
 10
46.397402
 20
109.433930
 30
0.0
 10
45.526139
 20
109.794819
 30
0.0
 10
44.590987
 20
109.918276
 30
0.0
 10
43.655835
 20
109.794819
 30
0.0
 10
42.784572
 20
109.433930
 30
0.0
 10
42.036022
 20
108.859975
 30
0.0
 10
41.462067
 20
108.111426
 30
0.0
 10
41.101178
 20
107.240158
 30
0.0
 10
40.977721
 20
106.305025
 30
0.0
 10
41.101178
 20
105.369801
 30
0.0
 10
41.462067
 20
104.498805
 30
0.0
 10
42.036022
 20
103.749251
 30
0.0
 10
42.784572
 20
103.179041
 30
0.0
 10
43.655835
 20
102.804248
 30
0.0
 10
44.278407
 20
102.756822
 30
0.0
 10
44.590987
 20
102.733010
 30
0.0
 11
44.590987
 21
102.733010
 31
0.0
 11
45.518004
 21
102.855389
 31
0.0
 11
46.374738
 21
103.210259
 31
0.0
 11
47.116772
 21
103.779225
 31
0.0
 11
47.685738
 21
104.521259
 31
0.0
 11
48.040608
 21
105.377993
 31
0.0
 11
48.162987
 21
106.305010
 31
0.0
 11
48.040608
 21
107.232027
 31
0.0
 11
47.685738
 21
108.088761
 31
0.0
 11
47.116772
 21
108.830795
 31
0.0
 11
46.374738
 21
109.399761
 31
0.0
 11
45.518004
 21
109.754631
 31
0.0
 11
44.590987
 21
109.877010
 31
0.0
 11
43.663970
 21
109.754631
 31
0.0
 11
42.807236
 21
109.399761
 31
0.0
 11
42.065202
 21
108.830795
 31
0.0
 11
41.496236
 21
108.088761
 31
0.0
 11
41.141366
 21
107.232027
 31
0.0
 11
41.018987
 21
106.305010
 31
0.0
 11
41.141366
 21
105.377993
 31
0.0
 11
41.496236
 21
104.521259
 31
0.0
 11
42.065202
 21
103.779225
 31
0.0
 11
42.807236
 21
103.210259
 31
0.0
 11
43.663970
 21
102.855389
 31
0.0
 11
44.590987
 21
102.733010
 31
0.0
  0
ENDSEC
  0
SECTION
  2
OBJECTS
  0
DICTIONARY
  5
C
330
0
100
AcDbDictionary
  3
ACAD_GROUP
350
D
  3
ACAD_MLINESTYLE
350
17
  0
DICTIONARY
  5
D
330
C
100
AcDbDictionary
  0
DICTIONARY
  5
1A
330
C
100
AcDbDictionary
  0
DICTIONARY
  5
17
330
C
100
AcDbDictionary
  3
STANDARD
350
18
  0
DICTIONARY
  5
19
330
C
100
AcDbDictionary
  0
ENDSEC
  0
EOF
