999
FreeCAD v0.20 
  0
SECTION
  2
HEADER
  9
$ACADVER
  1
AC1014
  9
$ACADMAINTVER
 70
     9
  9
$DWGCODEPAGE
  3
ANSI_1252
  9
$TEXTSTYLE
  7
STANDARD
  9
$DIMSTYLE
  2
STANDARD
  9
$DIMTXSTY
  7
STANDARD
  9
$CMLSTYLE
  2
STANDARD
  9
$LUNITS
 70
2
  9
$INSUNITS
 70
4
  9
$PEXTMAX
 10
50
 20
50
 30
50
  9
$PEXTMIN
 10
0
 20
0
 30
0
  9
$HANDSEED
  5
FFFF
  0
ENDSEC
  0
SECTION
  2
CLASSES
  0
CLASS
  1
ACDBDICTIONARYWDFLT
  2
AcDbDictionaryWithDefault
  3
ObjectDBX Classes
 90
        0
280
     0
281
     0
  0
CLASS
  1
XRECORD
  2
AcDbXrecord
  3
ObjectDBX Classes
 90
        0
280
     0
281
     0
  0
CLASS
  1
LWPOLYLINE
  2
AcDbPolyline
  3
ObjectDBX Classes
 90
        0
280
     0
281
     1
  0
ENDSEC
  0
SECTION
  2
TABLES
  0
TABLE
  2
VPORT
  5
20
330
0
100
AcDbSymbolTable
 70
     1
  0
VPORT
  5
21
330
20
100
AcDbSymbolTableRecord
100
AcDbViewportTableRecord
  2
*ACTIVE
 70
     0
  0
ENDTAB
  0
TABLE
  2
LTYPE
  5
22
330
0
100
AcDbSymbolTable
 70
     1
  0
LTYPE
  5
23
330
21
100
AcDbSymbolTableRecord
100
AcDbLinetypeTableRecord
  2
BYBLOCK
 70
     0
  3

 72
    65
 73
     0
 40
0.0
  0
LTYPE
  5
24
330
21
100
AcDbSymbolTableRecord
100
AcDbLinetypeTableRecord
  2
BYLAYER
 70
     0
  3

 72
    65
 73
     0
 40
0.0
  0
LTYPE
  5
25
330
21
100
AcDbSymbolTableRecord
100
AcDbLinetypeTableRecord
  2
CONTINUOUS
 70
     0
  3
Solid line
 72
    65
 73
     0
 40
0.0
  0
ENDTAB
  0
TABLE
  2
LAYER
  5
A19
330
0
100
AcDbSymbolTable
 70
19
  0
LAYER
  5
A1A
330
A19
100
AcDbSymbolTableRecord
100
AcDbLayerTableRecord
  2
0
 70
   0
 62
   7
  6
CONTINUOUS
  0
LAYER
  5
A1B
330
A19
100
AcDbSymbolTableRecord
100
AcDbLayerTableRecord
  2
none
 70
    0
 62
    7
  6
CONTINUOUS
  0
LAYER
  5
A1C
330
A19
100
AcDbSymbolTableRecord
100
AcDbLayerTableRecord
  2
Shape007
 70
    0
 62
    7
  6
CONTINUOUS
  0
LAYER
  5
A1D
330
A19
100
AcDbSymbolTableRecord
100
AcDbLayerTableRecord
  2
Shape011
 70
    0
 62
    7
  6
CONTINUOUS
  0
LAYER
  5
A1E
330
A19
100
AcDbSymbolTableRecord
100
AcDbLayerTableRecord
  2
Shape010
 70
    0
 62
    7
  6
CONTINUOUS
  0
LAYER
  5
A1F
330
A19
100
AcDbSymbolTableRecord
100
AcDbLayerTableRecord
  2
Shape009
 70
    0
 62
    7
  6
CONTINUOUS
  0
LAYER
  5
A20
330
A19
100
AcDbSymbolTableRecord
100
AcDbLayerTableRecord
  2
Shape008
 70
    0
 62
    7
  6
CONTINUOUS
  0
LAYER
  5
A21
330
A19
100
AcDbSymbolTableRecord
100
AcDbLayerTableRecord
  2
Shape015
 70
    0
 62
    7
  6
CONTINUOUS
  0
LAYER
  5
A22
330
A19
100
AcDbSymbolTableRecord
100
AcDbLayerTableRecord
  2
Shape012
 70
    0
 62
    7
  6
CONTINUOUS
  0
LAYER
  5
A23
330
A19
100
AcDbSymbolTableRecord
100
AcDbLayerTableRecord
  2
Shape014
 70
    0
 62
    7
  6
CONTINUOUS
  0
LAYER
  5
A24
330
A19
100
AcDbSymbolTableRecord
100
AcDbLayerTableRecord
  2
Shape013
 70
    0
 62
    7
  6
CONTINUOUS
  0
LAYER
  5
A25
330
A19
100
AcDbSymbolTableRecord
100
AcDbLayerTableRecord
  2
Shape001
 70
    0
 62
    7
  6
CONTINUOUS
  0
LAYER
  5
A26
330
A19
100
AcDbSymbolTableRecord
100
AcDbLayerTableRecord
  2
Shape005
 70
    0
 62
    7
  6
CONTINUOUS
  0
LAYER
  5
A27
330
A19
100
AcDbSymbolTableRecord
100
AcDbLayerTableRecord
  2
Shape002
 70
    0
 62
    7
  6
CONTINUOUS
  0
LAYER
  5
A28
330
A19
100
AcDbSymbolTableRecord
100
AcDbLayerTableRecord
  2
Shape003
 70
    0
 62
    7
  6
CONTINUOUS
  0
LAYER
  5
A29
330
A19
100
AcDbSymbolTableRecord
100
AcDbLayerTableRecord
  2
Shape004
 70
    0
 62
    7
  6
CONTINUOUS
  0
LAYER
  5
A2A
330
A19
100
AcDbSymbolTableRecord
100
AcDbLayerTableRecord
  2
Shape
 70
    0
 62
    7
  6
CONTINUOUS
  0
LAYER
  5
A2B
330
A19
100
AcDbSymbolTableRecord
100
AcDbLayerTableRecord
  2
Shape006
 70
    0
 62
    7
  6
CONTINUOUS
  0
LAYER
  5
A2C
330
A19
100
AcDbSymbolTableRecord
100
AcDbLayerTableRecord
  2
Shape016
 70
    0
 62
    7
  6
CONTINUOUS
  0
ENDTAB
  0
TABLE
  2
STYLE
  5
70
330
0
100
AcDbSymbolTable
 70
     2
  0
STYLE
  5
71
330
70
100
AcDbSymbolTableRecord
100
AcDbTextStyleTableRecord
  2
STANDARD
 70
     0
 40
0.0
 41
1.0
 50
0.0
 71
     0
 42
2.5
  3
arial.ttf
  4

  0
STYLE
  5
72
330
70
100
AcDbSymbolTableRecord
100
AcDbTextStyleTableRecord
  2
ANNOTATIVE
 70
     0
 40
0.0
 41
1.0
 50
0.0
 71
     0
 42
2.5
  3
arial.ttf
  4

  0
ENDTAB
  0
TABLE
  2
VIEW
  5
73
330
0
100
AcDbSymbolTable
 70
     0
  0
ENDTAB
  0
TABLE
  2
UCS
  5
74
330
0
100
AcDbSymbolTable
 70
     0
  0
ENDTAB
  0
TABLE
  2
APPID
  5
75
330
0
100
AcDbSymbolTable
 70
     2
  0
APPID
  5
76
330
75
100
AcDbSymbolTableRecord
100
AcDbRegAppTableRecord
  2
ACAD
 70
     0
  0
APPID
  5
77
330
75
100
AcDbSymbolTableRecord
100
AcDbRegAppTableRecord
  2
ACADANNOTATIVE
 70
     0
  0
ENDTAB
  0
TABLE
  2
DIMSTYLE
  5
78
330
0
100
AcDbSymbolTable
 70
     2
  0
DIMSTYLE
105
79
330
78
100
AcDbSymbolTableRecord
100
AcDbDimStyleTableRecord
  2
STANDARD
 70
     0
  3

  4

  5

  6

  7

 40
0.0
 41
2.5
 42
0.625
 43
3.75
 44
1.25
 45
0.0
 46
0.0
 47
0.0
 48
0.0
140
2.5
141
2.5
142
0.0
143
0.03937007874016
144
1.0
145
0.0
146
1.0
147
0.625
 71
     0
 72
     0
 73
     0
 74
     0
 75
     0
 76
     0
 77
     1
 78
     8
170
     0
171
     3
172
     1
173
     0
174
     0
175
     0
176
     0
177
     0
178
     0
270
     2
271
     2
272
     2
273
     2
274
     3
340
71
275
     0
280
     0
281
     0
282
     0
283
     0
284
     8
285
     0
286
     0
287
     3
288
     0
  0
ENDTAB
  0
TABLE
  2
BLOCK_RECORD
  5
A01
330
0
100
AcDbSymbolTable
  70
5
  0
BLOCK_RECORD
  5
A02
330
A01
100
AcDbSymbolTableRecord
100
AcDbBlockTableRecord
  2
*MODEL_SPACE
  0
BLOCK_RECORD
  5
A03
330
A01
100
AcDbSymbolTableRecord
100
AcDbBlockTableRecord
  2
*PAPER_SPACE
  0
ENDTAB
  0
ENDSEC
  0
SECTION
  2
BLOCKS
  0
BLOCK
  5
A04
330
A02
100
AcDbEntity
  8
0
100
AcDbBlockBegin
  2
*MODEL_SPACE
 70
   0
 10
0
 20
0
 30
0
  3
*MODEL_SPACE
  1
 
  0
ENDBLK
  5
A05
330
A02
100
AcDbEntity
  8
0
100
AcDbBlockEnd
  0
BLOCK
  5
A06
330
A03
100
AcDbEntity
 67
1
  8
0
100
AcDbBlockBegin
  2
*PAPER_SPACE
 70
   0
 10
0
 20
0
 30
0
  3
*PAPER_SPACE
  1
 
  0
ENDBLK
  5
A07
330
A03
100
AcDbEntity
 67
    1
  8
0
100
AcDbBlockEnd
  0
ENDSEC
  0
SECTION
  2
ENTITIES
  0
SPLINE
  5
A08
330
A02
100
AcDbEntity
  8
Shape007
100
AcDbSpline
210
0
220
0
230
1
 70
9
 71
3
 72
41
 73
37
 74
0
 40
0
 40
0
 40
0
 40
0
 40
0.93506
 40
0.93506
 40
0.93506
 40
1.86238
 40
1.86238
 40
1.86238
 40
2.79744
 40
2.79744
 40
2.79744
 40
5.59488
 40
5.59488
 40
5.59488
 40
8.39232
 40
8.39232
 40
8.39232
 40
11.1898
 40
11.1898
 40
11.1898
 40
13.9872
 40
13.9872
 40
13.9872
 40
16.7846
 40
16.7846
 40
16.7846
 40
19.5821
 40
19.5821
 40
19.5821
 40
20.5172
 40
20.5172
 40
20.5172
 40
21.4445
 40
21.4445
 40
21.4445
 40
22.3795
 40
22.3795
 40
22.3795
 40
22.3795
 10
74.753
 20
93.208
 30
0
 10
75.0656
 20
93.2318
 30
0
 10
75.3781
 20
93.2556
 30
0
 10
75.68
 20
93.3304
 30
0
 10
75.981
 20
93.4075
 30
0
 10
76.2666
 20
93.5258
 30
0
 10
76.5367
 20
93.6853
 30
0
 10
76.809
 20
93.8435
 30
0
 10
77.0563
 20
94.0332
 30
0
 10
77.2788
 20
94.2542
 30
0
 10
77.9436
 20
94.9135
 30
0
 10
78.3287
 20
95.8437
 30
0
 10
78.325
 20
96.78
 30
0
 10
78.3287
 20
97.7165
 30
0
 10
77.9436
 20
98.6462
 30
0
 10
77.2788
 20
99.3058
 30
0
 10
76.6192
 20
99.9707
 30
0
 10
75.6895
 20
100.356
 30
0
 10
74.753
 20
100.352
 30
0
 10
73.8165
 20
100.356
 30
0
 10
72.8868
 20
99.9707
 30
0
 10
72.2272
 20
99.3058
 30
0
 10
71.5623
 20
98.6462
 30
0
 10
71.1772
 20
97.7165
 30
0
 10
71.181
 20
96.78
 30
0
 10
71.1772
 20
95.8437
 30
0
 10
71.5623
 20
94.9135
 30
0
 10
72.2272
 20
94.2542
 30
0
 10
72.4497
 20
94.0332
 30
0
 10
72.697
 20
93.8435
 30
0
 10
72.9692
 20
93.6853
 30
0
 10
73.2394
 20
93.5258
 30
0
 10
73.525
 20
93.4075
 30
0
 10
73.826
 20
93.3304
 30
0
 10
74.1278
 20
93.2556
 30
0
 10
74.4404
 20
93.2318
 30
0
 10
74.753
 20
93.208
 30
0
  0
LINE
  5
A09
330
A02
100
AcDbEntity
  8
Shape011
100
AcDbLine
 10
-12.559
 20
76.142
 30
0
 11
-50.659
 21
76.142
 31
0
  0
LINE
  5
A0A
330
A02
100
AcDbEntity
  8
Shape010
100
AcDbLine
 10
14.078
 20
0.10001
 30
0
 11
-12.559
 21
76.142
 31
0
  0
LINE
  5
A0B
330
A02
100
AcDbEntity
  8
Shape009
100
AcDbLine
 10
-24.022
 20
0.10001
 30
0
 11
14.078
 21
0.10001
 31
0
  0
LINE
  5
A0C
330
A02
100
AcDbEntity
  8
Shape008
100
AcDbLine
 10
-50.659
 20
76.142
 30
0
 11
-24.022
 21
0.10001
 31
0
  0
LINE
  5
A0D
330
A02
100
AcDbEntity
  8
Shape015
100
AcDbLine
 10
101.741
 20
76.142
 30
0
 11
139.841
 21
76.142
 31
0
  0
LINE
  5
A0E
330
A02
100
AcDbEntity
  8
Shape012
100
AcDbLine
 10
139.841
 20
76.142
 30
0
 11
113.204
 21
0.10001
 31
0
  0
LINE
  5
A0F
330
A02
100
AcDbEntity
  8
Shape014
100
AcDbLine
 10
75.104
 20
0.10001
 30
0
 11
101.741
 21
76.142
 31
0
  0
LINE
  5
A10
330
A02
100
AcDbEntity
  8
Shape013
100
AcDbLine
 10
113.204
 20
0.10001
 30
0
 11
75.104
 21
0.10001
 31
0
  0
LINE
  5
A11
330
A02
100
AcDbEntity
  8
Shape001
100
AcDbLine
 10
0.140987
 20
76.142
 30
0
 11
26.778
 21
0.10001
 31
0
  0
SPLINE
  5
A12
330
A02
100
AcDbEntity
  8
Shape005
100
AcDbSpline
210
0
220
0
230
1
 70
8
 71
3
 72
32
 73
28
 74
0
 40
0
 40
0
 40
0
 40
0
 40
8.83854
 40
8.83854
 40
8.83854
 40
17.4559
 40
17.4559
 40
17.4559
 40
26.0282
 40
26.0282
 40
26.0282
 40
34.3266
 40
34.3266
 40
34.3266
 40
42.3334
 40
42.3334
 40
42.3334
 40
50.6318
 40
50.6318
 40
50.6318
 40
59.204
 40
59.204
 40
59.204
 40
67.8214
 40
67.8214
 40
67.8214
 40
76.6599
 40
76.6599
 40
76.6599
 40
76.6599
 10
26.778
 20
0.10001
 30
0
 10
26.1307
 20
3.01428
 30
0
 10
25.4834
 20
5.92855
 30
0
 10
25.5871
 20
8.85796
 30
0
 10
25.6883
 20
11.7141
 30
0
 10
26.5034
 20
14.5846
 30
0
 10
27.8155
 20
17.1822
 30
0
 10
29.1207
 20
19.7663
 30
0
 10
30.9177
 20
22.0804
 30
0
 10
33.1476
 20
23.8944
 30
0
 10
35.3062
 20
25.6504
 30
0
 10
37.8706
 20
26.9377
 30
0
 10
40.5876
 20
27.5698
 30
0
 10
43.2091
 20
28.1798
 30
0
 10
45.9728
 20
28.1798
 30
0
 10
48.5944
 20
27.5698
 30
0
 10
51.3114
 20
26.9377
 30
0
 10
53.8758
 20
25.6504
 30
0
 10
56.0344
 20
23.8944
 30
0
 10
58.2643
 20
22.0804
 30
0
 10
60.0613
 20
19.7663
 30
0
 10
61.3665
 20
17.1822
 30
0
 10
62.6786
 20
14.5846
 30
0
 10
63.4937
 20
11.7141
 30
0
 10
63.5949
 20
8.85796
 30
0
 10
63.6986
 20
5.92855
 30
0
 10
63.0513
 20
3.01428
 30
0
 10
62.404
 20
0.10001
 30
0
  0
LINE
  5
A13
330
A02
100
AcDbEntity
  8
Shape002
100
AcDbLine
 10
62.404
 20
0.10001
 30
0
 11
89.041
 21
76.142
 31
0
  0
LINE
  5
A14
330
A02
100
AcDbEntity
  8
Shape003
100
AcDbLine
 10
89.041
 20
76.142
 30
0
 11
89.041
 21
120.592
 31
0
  0
LINE
  5
A15
330
A02
100
AcDbEntity
  8
Shape004
100
AcDbLine
 10
89.041
 20
120.592
 30
0
 11
0.140987
 21
120.592
 31
0
  0
LINE
  5
A16
330
A02
100
AcDbEntity
  8
Shape
100
AcDbLine
 10
0.140987
 20
120.592
 30
0
 11
0.140987
 21
76.142
 31
0
  0
SPLINE
  5
A17
330
A02
100
AcDbEntity
  8
Shape006
100
AcDbSpline
210
0
220
0
230
1
 70
9
 71
3
 72
41
 73
37
 74
0
 40
0
 40
0
 40
0
 40
0
 40
0.93506
 40
0.93506
 40
0.93506
 40
1.86238
 40
1.86238
 40
1.86238
 40
2.79744
 40
2.79744
 40
2.79744
 40
5.59488
 40
5.59488
 40
5.59488
 40
8.39232
 40
8.39232
 40
8.39232
 40
11.1898
 40
11.1898
 40
11.1898
 40
13.9872
 40
13.9872
 40
13.9872
 40
16.7846
 40
16.7846
 40
16.7846
 40
19.5821
 40
19.5821
 40
19.5821
 40
20.5172
 40
20.5172
 40
20.5172
 40
21.4445
 40
21.4445
 40
21.4445
 40
22.3795
 40
22.3795
 40
22.3795
 40
22.3795
 10
14.428
 20
93.208
 30
0
 10
14.7406
 20
93.2318
 30
0
 10
15.0531
 20
93.2556
 30
0
 10
15.355
 20
93.3304
 30
0
 10
15.656
 20
93.4075
 30
0
 10
15.9416
 20
93.5258
 30
0
 10
16.2117
 20
93.6853
 30
0
 10
16.484
 20
93.8435
 30
0
 10
16.7313
 20
94.0332
 30
0
 10
16.9538
 20
94.2542
 30
0
 10
17.6186
 20
94.9135
 30
0
 10
18.0037
 20
95.8437
 30
0
 10
18
 20
96.78
 30
0
 10
18.0037
 20
97.7165
 30
0
 10
17.6186
 20
98.6462
 30
0
 10
16.9538
 20
99.3058
 30
0
 10
16.2942
 20
99.9707
 30
0
 10
15.3645
 20
100.356
 30
0
 10
14.428
 20
100.352
 30
0
 10
13.4915
 20
100.356
 30
0
 10
12.5618
 20
99.9707
 30
0
 10
11.9022
 20
99.3058
 30
0
 10
11.2373
 20
98.6462
 30
0
 10
10.8522
 20
97.7165
 30
0
 10
10.856
 20
96.78
 30
0
 10
10.8522
 20
95.8437
 30
0
 10
11.2373
 20
94.9135
 30
0
 10
11.9022
 20
94.2542
 30
0
 10
12.1247
 20
94.0332
 30
0
 10
12.372
 20
93.8435
 30
0
 10
12.6442
 20
93.6853
 30
0
 10
12.9144
 20
93.5258
 30
0
 10
13.2
 20
93.4075
 30
0
 10
13.501
 20
93.3304
 30
0
 10
13.8028
 20
93.2556
 30
0
 10
14.1154
 20
93.2318
 30
0
 10
14.428
 20
93.208
 30
0
  0
SPLINE
  5
A18
330
A02
100
AcDbEntity
  8
Shape016
100
AcDbSpline
210
0
220
0
230
1
 70
9
 71
3
 72
41
 73
37
 74
0
 40
0
 40
0
 40
0
 40
0
 40
0.93506
 40
0.93506
 40
0.93506
 40
1.86238
 40
1.86238
 40
1.86238
 40
2.79744
 40
2.79744
 40
2.79744
 40
5.59488
 40
5.59488
 40
5.59488
 40
8.39232
 40
8.39232
 40
8.39232
 40
11.1898
 40
11.1898
 40
11.1898
 40
13.9872
 40
13.9872
 40
13.9872
 40
16.7846
 40
16.7846
 40
16.7846
 40
19.5821
 40
19.5821
 40
19.5821
 40
20.5172
 40
20.5172
 40
20.5172
 40
21.4445
 40
21.4445
 40
21.4445
 40
22.3795
 40
22.3795
 40
22.3795
 40
22.3795
 10
44.591
 20
102.733
 30
0
 10
44.9036
 20
102.757
 30
0
 10
45.2161
 20
102.781
 30
0
 10
45.518
 20
102.855
 30
0
 10
45.819
 20
102.932
 30
0
 10
46.1046
 20
103.051
 30
0
 10
46.3747
 20
103.21
 30
0
 10
46.647
 20
103.369
 30
0
 10
46.8943
 20
103.558
 30
0
 10
47.1168
 20
103.779
 30
0
 10
47.7816
 20
104.439
 30
0
 10
48.1667
 20
105.369
 30
0
 10
48.163
 20
106.305
 30
0
 10
48.1667
 20
107.242
 30
0
 10
47.7816
 20
108.171
 30
0
 10
47.1168
 20
108.831
 30
0
 10
46.4572
 20
109.496
 30
0
 10
45.5275
 20
109.881
 30
0
 10
44.591
 20
109.877
 30
0
 10
43.6545
 20
109.881
 30
0
 10
42.7248
 20
109.496
 30
0
 10
42.0652
 20
108.831
 30
0
 10
41.4003
 20
108.171
 30
0
 10
41.0152
 20
107.242
 30
0
 10
41.019
 20
106.305
 30
0
 10
41.0152
 20
105.369
 30
0
 10
41.4003
 20
104.439
 30
0
 10
42.0652
 20
103.779
 30
0
 10
42.2877
 20
103.558
 30
0
 10
42.535
 20
103.369
 30
0
 10
42.8072
 20
103.21
 30
0
 10
43.0774
 20
103.051
 30
0
 10
43.363
 20
102.932
 30
0
 10
43.664
 20
102.855
 30
0
 10
43.9658
 20
102.781
 30
0
 10
44.2784
 20
102.757
 30
0
 10
44.591
 20
102.733
 30
0
  0
ENDSEC
  0
SECTION
  2
OBJECTS
  0
DICTIONARY
  5
F000
330
0
100
AcDbDictionary
  3
ACAD_GROUP
350
F001
  0
DICTIONARY
  5
F001
330
F000
100
AcDbDictionary
  0
ENDSEC
  0
EOF