999
"DXF R12 Output" (www.mydxf.blogspot.com)
 0 
SECTION
 2 
HEADER
 9 
$ACADVER
 1 
AC1009
 9 
$EXTMIN
 10 
 0 
 20 
 0 
 9 
$EXTMAX
 10 
 8.5 
 20 
 11 
 0 
ENDSEC
 0 
SECTION
 2 
ENTITIES
0
LINE
8
Layer 1
10
0.000000
20
42.135700
11
0.000000
21
33.880200
0
LINE
8
Layer 1
10
0.000000
20
33.880200
11
7.047700
21
15.292200
0
LINE
8
Layer 1
10
7.047700
20
15.292200
11
6.723296
21
16.896472
0
LINE
8
Layer 1
10
6.723296
20
16.896472
11
6.919510
21
18.481631
0
LINE
8
Layer 1
10
6.919510
20
18.481631
11
7.601131
21
19.926145
0
LINE
8
Layer 1
10
7.601131
20
19.926145
11
8.732944
21
21.108485
0
LINE
8
Layer 1
10
8.732944
20
21.108485
11
10.183558
21
21.866541
0
LINE
8
Layer 1
10
10.183558
20
21.866541
11
11.760700
21
22.119227
0
LINE
8
Layer 1
10
11.760700
20
22.119227
11
13.337842
21
21.866541
0
LINE
8
Layer 1
10
13.337842
20
21.866541
11
14.788456
21
21.108485
0
LINE
8
Layer 1
10
14.788456
20
21.108485
11
15.920269
21
19.926145
0
LINE
8
Layer 1
10
15.920269
20
19.926145
11
16.601890
21
18.481631
0
LINE
8
Layer 1
10
16.601890
20
18.481631
11
16.798104
21
16.896472
0
LINE
8
Layer 1
10
16.798104
20
16.896472
11
16.473700
21
15.292200
0
LINE
8
Layer 1
10
16.473700
20
15.292200
11
23.521400
21
33.880200
0
LINE
8
Layer 1
10
23.521400
20
33.880200
11
23.521400
21
42.135700
0
LINE
8
Layer 1
10
23.521400
20
42.135700
11
0.000000
21
42.135700
 0 
ENDSEC
 0 
EOF