999
"DXF R12 Output" (www.mydxf.blogspot.com)
 0 
SECTION
 2 
HEADER
 9 
$ACADVER
 1 
AC1009
 9 
$EXTMIN
 10 
 0 
 20 
 0 
 9 
$EXTMAX
 10 
 8.5 
 20 
 11 
 0 
ENDSEC
 0 
SECTION
 2 
ENTITIES
0
LINE
8
Layer 1
10
14.428000
20
106.519000
11
15.794945
21
106.790902
0
LINE
8
Layer 1
10
15.794945
20
106.790902
11
16.953785
21
107.565215
0
LINE
8
Layer 1
10
16.953785
20
107.565215
11
17.728098
21
108.724055
0
LINE
8
Layer 1
10
17.728098
20
108.724055
11
18.000000
21
110.091000
0
LINE
8
Layer 1
10
18.000000
20
110.091000
11
17.728098
21
111.457945
0
LINE
8
Layer 1
10
17.728098
20
111.457945
11
16.953785
21
112.616785
0
LINE
8
Layer 1
10
16.953785
20
112.616785
11
15.794945
21
113.391098
0
LINE
8
Layer 1
10
15.794945
20
113.391098
11
14.428000
21
113.663000
0
LINE
8
Layer 1
10
14.428000
20
113.663000
11
13.061055
21
113.391098
0
LINE
8
Layer 1
10
13.061055
20
113.391098
11
11.902215
21
112.616785
0
LINE
8
Layer 1
10
11.902215
20
112.616785
11
11.127902
21
111.457945
0
LINE
8
Layer 1
10
11.127902
20
111.457945
11
10.856000
21
110.091000
0
LINE
8
Layer 1
10
10.856000
20
110.091000
11
11.127902
21
108.724055
0
LINE
8
Layer 1
10
11.127902
20
108.724055
11
11.902215
21
107.565215
0
LINE
8
Layer 1
10
11.902215
20
107.565215
11
13.061055
21
106.790902
0
LINE
8
Layer 1
10
13.061055
20
106.790902
11
14.428000
21
106.519000
0
LINE
8
Layer 1
10
14.428000
20
106.519000
11
14.428000
21
106.519000
0
LINE
8
Layer 1
10
74.753000
20
106.519000
11
76.119945
21
106.790902
0
LINE
8
Layer 1
10
76.119945
20
106.790902
11
77.278785
21
107.565215
0
LINE
8
Layer 1
10
77.278785
20
107.565215
11
78.053098
21
108.724055
0
LINE
8
Layer 1
10
78.053098
20
108.724055
11
78.325000
21
110.091000
0
LINE
8
Layer 1
10
78.325000
20
110.091000
11
78.053098
21
111.457945
0
LINE
8
Layer 1
10
78.053098
20
111.457945
11
77.278785
21
112.616785
0
LINE
8
Layer 1
10
77.278785
20
112.616785
11
76.119945
21
113.391098
0
LINE
8
Layer 1
10
76.119945
20
113.391098
11
74.753000
21
113.663000
0
LINE
8
Layer 1
10
74.753000
20
113.663000
11
73.386055
21
113.391098
0
LINE
8
Layer 1
10
73.386055
20
113.391098
11
72.227215
21
112.616785
0
LINE
8
Layer 1
10
72.227215
20
112.616785
11
71.452902
21
111.457945
0
LINE
8
Layer 1
10
71.452902
20
111.457945
11
71.181000
21
110.091000
0
LINE
8
Layer 1
10
71.181000
20
110.091000
11
71.452902
21
108.724055
0
LINE
8
Layer 1
10
71.452902
20
108.724055
11
72.227215
21
107.565215
0
LINE
8
Layer 1
10
72.227215
20
107.565215
11
73.386055
21
106.790902
0
LINE
8
Layer 1
10
73.386055
20
106.790902
11
74.753000
21
106.519000
0
LINE
8
Layer 1
10
74.753000
20
106.519000
11
74.753000
21
106.519000
0
LINE
8
Layer 1
10
44.591000
20
116.044000
11
45.957945
21
116.315902
0
LINE
8
Layer 1
10
45.957945
20
116.315902
11
47.116785
21
117.090215
0
LINE
8
Layer 1
10
47.116785
20
117.090215
11
47.891098
21
118.249055
0
LINE
8
Layer 1
10
47.891098
20
118.249055
11
48.163000
21
119.616000
0
LINE
8
Layer 1
10
48.163000
20
119.616000
11
47.891098
21
120.982945
0
LINE
8
Layer 1
10
47.891098
20
120.982945
11
47.116785
21
122.141785
0
LINE
8
Layer 1
10
47.116785
20
122.141785
11
45.957945
21
122.916098
0
LINE
8
Layer 1
10
45.957945
20
122.916098
11
44.591000
21
123.188000
0
LINE
8
Layer 1
10
44.591000
20
123.188000
11
43.224055
21
122.916098
0
LINE
8
Layer 1
10
43.224055
20
122.916098
11
42.065215
21
122.141785
0
LINE
8
Layer 1
10
42.065215
20
122.141785
11
41.290902
21
120.982945
0
LINE
8
Layer 1
10
41.290902
20
120.982945
11
41.019000
21
119.616000
0
LINE
8
Layer 1
10
41.019000
20
119.616000
11
41.290902
21
118.249055
0
LINE
8
Layer 1
10
41.290902
20
118.249055
11
42.065215
21
117.090215
0
LINE
8
Layer 1
10
42.065215
20
117.090215
11
43.224055
21
116.315902
0
LINE
8
Layer 1
10
43.224055
20
116.315902
11
44.591000
21
116.044000
0
LINE
8
Layer 1
10
44.591000
20
116.044000
11
44.591000
21
116.044000
0
LINE
8
Layer 1
10
0.140987
20
133.903000
11
0.140987
21
89.453000
0
LINE
8
Layer 1
10
0.140987
20
89.453000
11
26.778000
21
13.411000
0
LINE
8
Layer 1
10
26.778000
20
13.411000
11
28.024353
21
10.538751
0
LINE
8
Layer 1
10
28.024353
20
10.538751
11
29.631883
21
7.951161
0
LINE
8
Layer 1
10
29.631883
20
7.951161
11
31.560040
21
5.678529
0
LINE
8
Layer 1
10
31.560040
20
5.678529
11
33.768275
21
3.751156
0
LINE
8
Layer 1
10
33.768275
20
3.751156
11
36.216038
21
2.199343
0
LINE
8
Layer 1
10
36.216038
20
2.199343
11
38.862779
21
1.053390
0
LINE
8
Layer 1
10
38.862779
20
1.053390
11
41.667950
21
0.343598
0
LINE
8
Layer 1
10
41.667950
20
0.343598
11
44.591000
21
0.100268
0
LINE
8
Layer 1
10
44.591000
20
0.100268
11
47.514050
21
0.343598
0
LINE
8
Layer 1
10
47.514050
20
0.343598
11
50.319221
21
1.053390
0
LINE
8
Layer 1
10
50.319221
20
1.053390
11
52.965962
21
2.199343
0
LINE
8
Layer 1
10
52.965962
20
2.199343
11
55.413725
21
3.751156
0
LINE
8
Layer 1
10
55.413725
20
3.751156
11
57.621960
21
5.678529
0
LINE
8
Layer 1
10
57.621960
20
5.678529
11
59.550117
21
7.951161
0
LINE
8
Layer 1
10
59.550117
20
7.951161
11
61.157647
21
10.538751
0
LINE
8
Layer 1
10
61.157647
20
10.538751
11
62.404000
21
13.411000
0
LINE
8
Layer 1
10
62.404000
20
13.411000
11
89.041000
21
89.453000
0
LINE
8
Layer 1
10
89.041000
20
89.453000
11
89.041000
21
133.903000
0
LINE
8
Layer 1
10
89.041000
20
133.903000
11
0.140987
21
133.903000
0
LINE
8
Layer 1
10
-50.659000
20
89.453000
11
-24.022000
21
13.411000
0
LINE
8
Layer 1
10
-24.022000
20
13.411000
11
14.078000
21
13.411000
0
LINE
8
Layer 1
10
14.078000
20
13.411000
11
-12.559000
21
89.453000
0
LINE
8
Layer 1
10
-12.559000
20
89.453000
11
-50.659000
21
89.453000
0
LINE
8
Layer 1
10
139.841000
20
89.453000
11
113.204000
21
13.411000
0
LINE
8
Layer 1
10
113.204000
20
13.411000
11
75.104000
21
13.411000
0
LINE
8
Layer 1
10
75.104000
20
13.411000
11
101.741000
21
89.453000
0
LINE
8
Layer 1
10
101.741000
20
89.453000
11
139.841000
21
89.453000
 0 
ENDSEC
 0 
EOF